Jump to content
Sign in to follow this  
rubens

The Clock

Recommended Posts

hey qualcuno sa dirmi che accordi usa thom nel video live quando da solista con la chitarra suona the clock

:prego: vi saro molto grato

se volete vederlo su you tube "thom yorke - the clock

questa versione live mi fa propio morire :bava: sopratutto quando thom fa quell'urlo mentre suona come un pazzo(forse sforzando al massimo le sue doti bo !!) mi piace più questa che la versione originale.

VI prego chi riesce a trovarli??? :prego:

p.s. Quanto è bravo thom a trasformare le canzoni da quelle normali incise sui dischi a quelle live, perciò penso che il vuovo album sia ben diverso dalle canzoni che gia sappiamo verrano inserite

Share this post


Link to post
Share on other sites

Se non erro è accordata in un modo particolare, non è l'accordatura standard in E.

comunque trovi qualcosa su www.911tabs.com.

Mi sembra che ci sia la tab classica ed anche quella per guitar pro.

Buon divertimento! ;)

Share this post


Link to post
Share on other sites
TUNING:

E;B;D;F#;B;E

ho già provato a farla... non è difficilissima ma il problema poi è cantare... :o

si l'accordatura è quella, e sono tutte variazioni (che non trascrivo perché mi ci vorrebbe troppo tempo) su questo giro in Bm:

e -------------------------------------------------------------7----

B ---------------------------------------------------------------7--

F#---------8h--------------8h--------------8h--------------8h-------

D ---9--9------9-----9--9------9-----9--9------9-----9--9-----------

B ---0- 0------0-----0- 0------0-----0- 0------0-----0- 0-----------

E -------------------------------------------------------------------

che poi ripete aggiungendo il basso di E

e -------------------------------------------------------------7----

B ---------------------------------------------------------------7--

F#---------8h--------------8h--------------8h--------------8h-------

D ---9--9------9-----9--9------9-----9--9------9-----9--9-----------

B ---0- 0------0-----0- 0------0-----0- 0------0-----0- 0-----------

E ---0--0------0-----0--0------0-----0--0------0-----0--0------------

l'intermezzo invece è

e ---------------------------------------

B ---------------------------------------

F#---------------------------------------

D ---4--7--4-----2--4--2----0--2--0------

B ---0--0--0-----0--0--0----0--0--0---0--

E ---------------------------------------

lo strumming credo venga abbastanza naturale sentendo la canzone. non la faccio esattamente uguale (ma anche Thom varia un po' nelle 2 versioni video che ci sono) ma riesco a rendere l'idea e cantarci sopra... e ammetto che è proprio una meraviglia :)

Share this post


Link to post
Share on other sites
TUNING:

E;B;D;F#;B;E

ho già provato a farla... non è difficilissima ma il problema poi è cantare... :o

si l'accordatura è quella, e sono tutte variazioni (che non trascrivo perché mi ci vorrebbe troppo tempo) su questo giro in Bm:

e -------------------------------------------------------------7----

B ---------------------------------------------------------------7--

F#---------8h--------------8h--------------8h--------------8h-------

D ---9--9------9-----9--9------9-----9--9------9-----9--9-----------

B ---0- 0------0-----0- 0------0-----0- 0------0-----0- 0-----------

E -------------------------------------------------------------------

che poi ripete aggiungendo il basso di E

e -------------------------------------------------------------7----

B ---------------------------------------------------------------7--

F#---------8h--------------8h--------------8h--------------8h-------

D ---9--9------9-----9--9------9-----9--9------9-----9--9-----------

B ---0- 0------0-----0- 0------0-----0- 0------0-----0- 0-----------

E ---0--0------0-----0--0------0-----0--0------0-----0--0------------

l'intermezzo invece è

e ---------------------------------------

B ---------------------------------------

F#---------------------------------------

D ---4--7--4-----2--4--2----0--2--0------

B ---0--0--0-----0--0--0----0--0--0---0--

E ---------------------------------------

lo strumming credo venga abbastanza naturale sentendo la canzone. non la faccio esattamente uguale (ma anche Thom varia un po' nelle 2 versioni video che ci sono) ma riesco a rendere l'idea e cantarci sopra... e ammetto che è proprio una meraviglia :)

Ammazza Complimenti! ;)

Share this post


Link to post
Share on other sites

Create an account or sign in to comment

You need to be a member in order to leave a comment

Create an account

Sign up for a new account in our community. It's easy!

Register a new account

Sign in

Already have an account? Sign in here.

Sign In Now
Sign in to follow this  

  • Recently Browsing   0 members

    No registered users viewing this page.

×